Theme of Dixie

(/) Slide Up  (\) Slide Down  (h) Hammer On  (p) Pull Off  (b) Bend (r) Release (v) Vibrato


E|------------------------------------------------------------------------------------------------
B|------------------------------------------------------------------------------------------------
G|------------------------------------------------------------------------------------------------
D|------------------------------------------------------------2--4--6--2-----2--------------------
A|--2--------------------0--2--2--2-------4--4--4--2--4----4--------------4-----2-----2-----2-----
E|-----4--0--0--0--2--4--------------4---------------------------------------------4-----4-----0--



E|------------------------------------------------------------------------------------
B|------------------------------------------------------------------------------------
G|--------1------------------------------------1--------------------------------------
D|-----2-----4--2-----2-----4-----4---------2-----4--2--------2-----------4--2--------
A|--2--------------4-----4-----4---------2--------------4--4-----4--4--4--------4--0--
E|------------------------------------------------------------------------------------



E|----------------------------------------------------------------------------
B|----------------------------------------------------------------------------
G|--------------------------1-------------------------------------1-----------
D|-----------------------2-----2--4--2-------------------------2-----2--4--2--
A|--------------------2-------------------------------------2-----------------
E|--2b0----4--2----2----------------------2b0----4--2----2--------------------
http://www.guitartabcreator.com
Guitar Tab Creator is intended to store guitar tab created through the tool. It currently does not support in-line text editing. Any text you place in here will be lost. If you need to comment on your tab, please use the "Tab Notes" section located below.