Rebel Rouser

(/) Slide Up  (\) Slide Down  (h) Hammer On  (p) Pull Off  (b) Bend (r) Release (v) Vibrato

E|-------------------------------------------------------------------------------------
B|-------------------------------------------------------------------------------------
G|-------------------------------------------------------------------------------------
D|----------------------------------------2--------------------------------------------
A|-------------0--2--2--------0--0--0--4-----2---------------0--2--------0--2--2-------
E|--2b0--0--4-----------4--0----------------------2b0--0--4--------0--4-----------2b0--



E|----------------------------------------------------------------------------------------
B|----------------------------------------------------------------------------------------
G|----------------------------------------------------------------------------------------
D|--------------------------------------0--3----------------------------------------------
A|-----------0--1--3--3--0-----1--1--1--------3-------------0--1--3-----0--1--3--3--------
E|--0--1--1-----------------1----------------------3--1--1-----------1--------------3--1--



E|----------------------------------------------------------------------------------------
B|----------------------------------------------------------------------------------------
G|----------------------------------------------------------------------------------------
D|--------------------------------------1-------------------------------------------------
A|-----------1--2--4--4--1-----2--2--2-----4----------------1--2--4-----1--2--4--4--------
E|--1--2--2-----------------2-----------------4----4--2--2-----------2--------------4--2--



E|----------------------------------------------------------------------------------------
B|----------------------------------------------------------------------------------------
G|----------------------------------------------------------------------------------------
D|--------------------------------------2--5----------------------------------------------
A|-----------2--3--5--5--2-----3--3--3--------5-------------2--3--5-----2--3--5--5--------
E|--2--3--3-----------------3----------------------5--3--3-----------3--------------5--3--
http://www.guitartabcreator.com
Guitar Tab Creator is intended to store guitar tab created through the tool. It currently does not support in-line text editing. Any text you place in here will be lost. If you need to comment on your tab, please use the "Tab Notes" section located below.