NEW SONG

(/) Slide Up  (\) Slide Down  (h) Hammer On  (p) Pull Off  (b) Bend (r) Release (v) Vibrato

E|-------------------------------------------------------------------------------------------
B|-------------------------------------------------------------------------------------------
G|-------------------------------------------------------------------------------------------
D|-------------------------------------------------------------------------------------------
A|----------0--0----0----------------------------------------0--0----0--0--0--0--0--0--0--0--
E|--2b3--0--0--0----0--12--10--12--13--12--10--12----2b3--0--0--0----0--1--1--1--1--1--1--1--



E|------------------------------------------------
B|--3---------------------------------------------
G|--2------------10-------------------------------
D|--0------------10--------------5----------------
A|--0------------8---------------6----------------
E|--0------------8---------------5----------------



E|---------------------------------------------------------------------------------
B|---------------------------------------------------------------------------------
G|---------------------------------------------------------------------------------
D|---------------------------------------------------------------------------------
A|-----6-5---6-5---3h5-3h5--------6-5---6-5---3h5-3h5-------6-5---6-5---3h5-3h5----
E|-0-0-----0-----0------------0-0-----0-----0-----------0-0-----0-----0------------



E|-----------------------------
B|-----------------------------
G|-----------------------------
D|-----------------------------
A|-----------------------------
E|-8-8-8-8-8-8-8-5-5-5-5-5-5-5-



E|---------------------
B|---------------------
G|---------------------
D|-0-----4-----1-------
A|-0-----4-----1-------
E|-0-----4-----1-------



E|-------------------------------------------------------------------------------------------------------------------------------------------------------------
B|-------------------------------------------------------------------------------------------------------------------------------------------------------------
G|-------------------------------------------------------------------------------------------------------------------------------------------------------------
D|-------------------------------------------------------------------------------------------------------------------------------------------------------------
A|-------------------------------------------------------------------------------------------------------------------------------------------------------------
E|--0--0--0--0--0--0--0--8--8--8--8--8--8--8--8--5--5--5--5--5--5--5--5h7------0--0--0--0--0--0--0--0--8--8--8--8--8--8--8--8--10--10--10--10--10--10--10--10--
http://www.guitartabcreator.com
Guitar Tab Creator is intended to store guitar tab created through the tool. It currently does not support in-line text editing. Any text you place in here will be lost. If you need to comment on your tab, please use the "Tab Notes" section located below.