Baby Lets Play

(/) Slide Up  (\) Slide Down  (h) Hammer On  (p) Pull Off  (b) Bend (r) Release (v) Vibrato


E|-----------------------------------------------------
B|--2--1-----------------------------4--3--------------
G|--------1--------------------------------3--0--------
D|-----------3-----------------------------------------
A|--------------4--3--3--1-----------------------6--5--
E|--------------------------3--------------------------



E|--------------------------------------
B|--2--1--1-----------------------8--8--
G|-----------1--------------------6--6--
D|--------------3--------------8--8--8--
A|-----------------4--3-----7-----7--7--
E|-----------------------6--------------
http://www.guitartabcreator.com
Guitar Tab Creator is intended to store guitar tab created through the tool. It currently does not support in-line text editing. Any text you place in here will be lost. If you need to comment on your tab, please use the "Tab Notes" section located below.