Dan Ogden Composition 2 Part 1

(/) Slide Up  (\) Slide Down  (h) Hammer On  (p) Pull Off  (b) Bend (r) Release (v) Vibrato
Intro
E|--00-00-00-00-00-00-00-00----
B|--11-11-11-11-00-00-00-00----
G|--00-00-22-22-00-00-00-00----
D|--22-22-22-22-22-22-22-22----x2
A|--33-33-00-00-22-22-22-22----
E|--00-00-00-00-00-00-00-00----
Section 1
E|--11-11-33-22-00-00-00--0/2--11-11-33-33--1-1-1-1-1-1-
B|--11-11-33-22-11-11-11--1/2--11-11-33-33--3-3-3-3-3-3-
G|--22-22-00-00-22-22-22--2/0--22-22-00-00--2-2-2-2-2-2-
D|--33-33-00-00-22-22-22--2/0--33-33-00-00--0-0-0-0-0-0-
A|--33-33-22-22-00-00-00--0/2--33-33-22-22--0-0-0-0-0-0-
E|--11-11 -33-33-00-00-00--0/3--11-11-33-33--0-0-0-0-0-0-
Section 2
E|--1--2--0-----------------P.M.11111111-33333333-000000000000000-333----11111111-33333333--0-0-0
B|--1--2--1-----------------P.M.11111111-33333333-111111111111111-333----11111111-33333333--1-1-1
G|--2--0--2-----------------P.M.22222222-00000000-222222222222222-000----22222222-00000000--2-2-2
D|--3--0--2-----x2----------P.M.33333333-00000000-222222222222222-000----33333333-00000000--2-2-2
A|--3--2--0-----------------P.M.33333333-22222222-000000000000000-222----33333333-22222222--0-0-0
E|--1--3--0-----------------P.M.11111111-33333333-000000000000000-333----11111111-33333333--0-0-0

E|-----0--1--3--0/1--1111-1111-3333--0----1---------
B|-----1--1--3--0/1--1111-1111-3333--0----1---------
D|-----2--2--0--0/2--2222-2222-0000--0----2---------
G|-----2--3--0--2/3--2222-3333-0000--2----3---------
A|-----0--3--2--2/3--0000-3333-2222--2----3--------- Repeat Intro and Section 1
E|-----0--1--3--0/1--0000-1111-3333--0----1---------
Guitar Tab Creator is intended to store guitar tab created through the tool. It currently does not support in-line text editing. Any text you place in here will be lost. If you need to comment on your tab, please use the "Tab Notes" section located below.