Dan Ogden Composition 2 Lead Guitar

(/) Slide Up  (\) Slide Down  (h) Hammer On  (p) Pull Off  (b) Bend (r) Release (v) Vibrato
Part 1
E|-------------------------------------------------------------
B|--1p0----1p0----1p0--1p0----1p0----1p0--0--------------------
G|-----0------0------------3------3-----------0----------------
D|----------------------------------------------2---x2---------
A|--3------3------3----0------0------0----2--------------------
E|-------------------------------------------------------------
Part 2
E|--1---3-----------------------------------1---3---1----------
B|--1---3---1p0----1p0----1p0---1-----3-----1---3---3----------
G|--2---0-------3------3------3---3---------2---0---2----------
D|--3---0-----------------------------------3---0---0----------
A|--3---2---0------0------0-----0-----2-----3---2---0----------
E|--1---3-----------------------------------1---3---0----------

Part 3
E|---------------------------------------------------------------------------
B|---------------------------------------------------------------------------
G|----2-5----4-------2-4-5-7-5-4-2--2-5---4----------------------------------
D|----------------5--------------------------5--5-3-2-0-------2-5-7-5--9-7-
A|---------------------------------------------------------------------------
E|---------------------------------------------------------------------------

E|---------------------------------------------------------------------------
B|---------------------------------------------------------------------------
G|--9-10-9-7h9-5--2-5----4---------------------------------------------------
D|--------------------------5--5-3-2-0---------------------------------------
A|---------------------------------------------------------------------------
E|---------------------------------------------------------------------------

Rest for section one On rhythm guitar, then repeat Part 1 and 2 on One rhythm guitar section and 2
Guitar Tab Creator is intended to store guitar tab created through the tool. It currently does not support in-line text editing. Any text you place in here will be lost. If you need to comment on your tab, please use the "Tab Notes" section located below.