Composition 1

(/) Slide Up  (\) Slide Down  (h) Hammer On  (p) Pull Off  (b) Bend (r) Release (v) Vibrato



E|----------------------------
B|----0h1-1----1-1-----3---2--
G|----2---2----0-0-----0--0-3-
D|-----------------------4----x4
A|--0---------3-----5---------
E|----------------------------

E|-------------------
B|--3-3-3-3-3-3-3-3--
D|--0-0-2-2-0-0-0-0--
G|-----------------X2
A|--3----------------
E|------2---0--------
Guitar Tab Creator is intended to store guitar tab created through the tool. It currently does not support in-line text editing. Any text you place in here will be lost. If you need to comment on your tab, please use the "Tab Notes" section located below.