A-E-A-E

(/) Slide Up  (\) Slide Down  (h) Hammer On  (p) Pull Off  (b) Bend (r) Release (v) Vibrato


E|--0--0--0--0--0--0--0--0--0--0--
B|--2--2--2--0--2--0--0--0--0--0--
G|--2--2--2--1--2--1--6--6--4--4--
D|--2--2--2--2--2--2--6--6--4--4--
A|--0--0--0--2--0--2--4--4--2--2--
E|-----------0-----0--------------



E|--9---9---9---12--9---7--0--0--0--0--
B|--10--10--10--12--10--9--9--9--4--4--
G|-------------------------9--9--4--4--
D|-------------------------------------
A|-------------------------------------
E|-------------------------------------
http://www.guitartabcreator.com
Guitar Tab Creator is intended to store guitar tab created through the tool. It currently does not support in-line text editing. Any text you place in here will be lost. If you need to comment on your tab, please use the "Tab Notes" section located below.