Advocate The Blessing - Vehemeth

(/) Slide Up  (\) Slide Down  (h) Hammer On  (p) Pull Off  (b) Bend (r) Release (v) Vibrato
E|--------------------------------------------------
B|--------------------------------------------------
G|--------------------------------------------------
D|-----9-----9-----7-----7-----5-----5-----2-----2--
A|--7-----7-----5-----5-----3-----3-----0-----0-----
E|--------------------------------------------------



E|--------------------------------------------------
B|--------------------------------------------------
G|--------------------------------------------------
D|-----9-----9-----7-----7-----5-----5-----2-----2--
A|--7-----7-----5-----5-----3-----3-----0-----0-----
E|--------------------------------------------------



E|--------------------------------------------------
B|--------------------------------------------------
G|--------------------------------------------------
D|-----9-----9-----7-----7-----5-----5-----2-----2--
A|--7-----7-----5-----5-----3-----3-----0-----0-----
E|--------------------------------------------------



E|--------------------------------------------
B|--------------------------------------------
G|--------------------------------------------
D|-----9-----9-----7-----7-----5-----5--2-----
A|--7-----7-----5-----5-----3-----3-----0-----
E|--------------------------------------------



E|---------------------------------------------
B|---------------------------------------------
G|---------------------------------------------
D|--7--5--8--0--0--0--0--0--10--0--7--8--8--5--
A|-----------0--0--0--0--0------0--------------
E|-----------0--0--0--0--0------0--------------



E|--------------------------------------
B|--------------------------------------
G|--------------------------------------
D|--------------------------------------
A|--------------------------------------
E|--0--0--0--2--0--0--0--2--3--3--3--3--



E|------------------------------------------------------------------------------------------------------------------------------------
B|--------------7--7--------------------7--7--------------------7--7--------10--10--------------------------8--8----------------------
G|--7--7--9--9--------9--9--7--7--9--9--------9--9--7--7--9--9--------9--9----------10--10--12--12--10--10--------9--9--10--10--9--9--
D|------------------------------------------------------------------------------------------------------------------------------------
A|------------------------------------------------------------------------------------------------------------------------------------
E|------------------------------------------------------------------------------------------------------------------------------------
http://www.guitartabcreator.com
Guitar Tab Creator is intended to store guitar tab created through the tool. It currently does not support in-line text editing. Any text you place in here will be lost. If you need to comment on your tab, please use the "Tab Notes" section located below.