May 10th 2013

(/) Slide Up  (\) Slide Down  (h) Hammer On  (p) Pull Off  (b) Bend (r) Release (v) Vibrato


E|-----------------------------------------------------------------------------3-------------------
B|-----------------------------------------------------------------------1-------1-----------6-----
G|-------------------------------------------------------------------------0-------0---7-------7---
D|-----0-------0-------0-------0---------------------------------------------2-----------7-------7-
A|-5-5---5-5-5---5-5-5---5-5-5---5-----12-------12-------12-------12---3-------------5-----5-------
E|---------------------------------9-9----9-9-9----9-9-9----9-9-9----9-----------------------------



E|---------2-----
B|---------0-----
G|---2-----------
D|-----1---------
A|-2-----2-------
E|---------------
http://www.guitartabcreator.com
Guitar Tab Creator is intended to store guitar tab created through the tool. It currently does not support in-line text editing. Any text you place in here will be lost. If you need to comment on your tab, please use the "Tab Notes" section located below.