solo

(/) Slide Up  (\) Slide Down  (h) Hammer On  (p) Pull Off  (b) Bend (r) Release (v) Vibrato


E|--------------------------------------------------------------------------------
B|--------------------------------------------------------------------------------
G|--9--7--9--7-----7----9--7--9--7-----7----9--7--9--7-----7-------------------7--
D|--------------9-------------------9-------------------9-------9--7-----7--9-----
A|--------------------------------------------------------------------9-----------
E|--------------------------------------------------------------------------------



E|--------7-----------------------7-----------------------7-----------------------------------
B|-----------10--7-------------------10--7-------------------10--7----------------------------
G|--9b10------------9--7----9b10------------9--7----9b10------------9--7-------------------7--
D|--------------------------------------------------------------------------9--7-----7--9-----
A|--------------------------------------------------------------------------------9-----------
E|--------------------------------------------------------------------------------------------
http://www.guitartabcreator.com
Guitar Tab Creator is intended to store guitar tab created through the tool. It currently does not support in-line text editing. Any text you place in here will be lost. If you need to comment on your tab, please use the "Tab Notes" section located below.