Guitar intro

(/) Slide Up  (\) Slide Down  (h) Hammer On  (p) Pull Off  (b) Bend (r) Release (v) Vibrato


E|---------0-------------0-------------0-------------0------------0-----------0-----
B|-----12-----12-----12-----12-----10-----10-----10-----10-----8-----8-----8-----8--
G|--9-------------9-------------7-------------7-------------5-----------5-----------
D|----------------------------------------------------------------------------------
A|----------------------------------------------------------------------------------
E|----------------------------------------------------------------------------------



E|--------0-----------0-------
B|-----5-----5-----5-----5----
G|--2-----------2-------------
D|----------------------------
A|----------------------------
E|----------------------------
http://www.guitartabcreator.com
Guitar Tab Creator is intended to store guitar tab created through the tool. It currently does not support in-line text editing. Any text you place in here will be lost. If you need to comment on your tab, please use the "Tab Notes" section located below.