Bass Lines

(/) Slide Up  (\) Slide Down  (h) Hammer On  (p) Pull Off  (b) Bend (r) Release (v) Vibrato

E|----------------------------------------
B|----------------------------------------
G|----------------------------------------
D|----------------------------------------
A|--7----5----3----0----7----5----3----0--
E|----------------------------------------



E|------------------------------------------------------------------
B|------------------------------------------------------------------
G|------------------------------------------------------------------
D|-----9-----9-------7-----7-------5-----5/7-------4-----2--4--2----
A|--7-----7-------5-----5-------3-----3---------2-----2-------------
E|------------------------------------------------------------------



E|----------------------------------------------------------------------------
B|----------------------------------------------------------------------------
G|--------4-------------------------------------------------------------------
D|-----------------------------7--------------------5--------------------7----
A|--2--2-----2--4--5--4--------------4--5--4--------------4--5--4-------------
E|-----------------------5--5-----5-----------3--3-----3-----------5--5-------



E|----------------------------------------------------------
B|----------------------------------------------------------
G|----------------------------------------------------------
D|----------------------------------------------------------
A|----------------------------------------------------------
E|--2--2--2--2----3--3--3--3----5--5--5--5----3--3--5--3----
http://www.guitartabcreator.com
Guitar Tab Creator is intended to store guitar tab created through the tool. It currently does not support in-line text editing. Any text you place in here will be lost. If you need to comment on your tab, please use the "Tab Notes" section located below.