Solo Guitar

(/) Slide Up  (\) Slide Down  (h) Hammer On  (p) Pull Off  (b) Bend (r) Release (v) Vibrato

E|--------------------------------------------------------------------------------------------|--
B|--------------------------------------8--7h8p7---------------8--7---------------------------|--
G|------------------------------7-----------------9--7--9------------9--7-----7---------------|--
D|--9p7--9----9p7--9----9p7--9-----9---------------------------------------9-----7------------|--
A|----------------------------------------------------------------------------------10--9--7--|--
E|--------------------------------------------------------------------------------------------|--



E|-------------------------------------------------------------------------------------------------|-
B|-8---8---8---8---8---8---8---8---10---10---10---10---10---10---10---10---12----12----12----12----|-
G|---7---7---7---7---7---7---7---7----7----7----7----7----7----7----7----7----12----12----12----12-|-
D|-------------------------------------------------------------------------------------------------|-
A|-------------------------------------------------------------------------------------------------|-
E|-------------------------------------------------------------------------------------------------|-



E|-------------------------------------------------12----12----12-|---
B|-12----12----12----12----15----15----15----15-------12----12----|---
G|----12----12----12----12----12----12----12----12----------------|---
D|----------------------------------------------------------------|---
A|----------------------------------------------------------------|---
E|----------------------------------------------------------------|---



E|-------------------------------------------------------------------------------------|-
B|-------------------------------------------------------------------------------------|-
G|-------------------------------------------------------------------------------------|-
D|-10--10-10--12--12-12--7--7-7-7---7--7--7----10--10-10--12--12-12--------------------|-
A|-12--12-12--12--12-12--7--7-7-10--10-10-10---12--12-12--12--12-12--10-10-9-9-7-7-9-9-|-
E|-8---8--8---10--10-10--7--7-7-7---7--7--7----8---8--8---10--10-10--7--7--7-7-7-7-7-7-|-



E|--7----------7------------7------------7------------7------------7------------7------------7--10--12--|-----
B|-----8--7-------7------------7--8--10------------------8--7---------7------------7--8--10-------------|-----
G|-------------------7----------------------7--9-------------------------7------------------------------|-----
D|------------------------------------------------------------------------------------------------------|-----
A|------------------------------------------------------------------------------------------------------|-----
E|------------------------------------------------------------------------------------------------------|-----
http://www.guitartabcreator.com
Guitar Tab Creator is intended to store guitar tab created through the tool. It currently does not support in-line text editing. Any text you place in here will be lost. If you need to comment on your tab, please use the "Tab Notes" section located below.