[Metallica] Nothing Else Matters (Solo)

(/) Slide Up  (\) Slide Down  (h) Hammer On  (p) Pull Off  (b) Bend (r) Release (v) Vibrato
E|------------------------------------------------------------------------------------12-------------12--
B|--15-----15---------------------------------------------------------------------12-------------12------
G|--14b16--14b16--12----14--12--11--12--11------11-------------12--14--12--14b16----------14b16----------
D|------------------------------------------14------12h14------------------------------------------------
A|-------------------------------------------------------------------------------------------------------
E|-------------------------------------------------------------------------------------------------------



E|-------------------------------------------/15--14--------/15--14--15/17--15--14h15p14------15p14------
B|--15--12--15--14--12----14--14-13--12---------------12----------------------------------12---------12--
G|------------------------14--14p13--12------------------------------------------------------------------
D|-------------------------------------------------------------------------------------------------------
A|-------------------------------------------------------------------------------------------------------
E|-------------------------------------------------------------------------------------------------------



E|-----------------------------------------------12--------------12----------------------------------------
B|--------------15---------------------------12------15--12--15------------15--12h15p12------\7----\5h7p5--
G|--12--14--12--14b16--12h14p12------12--12----------------------------------------------------------------
D|-------------------------------14------------------------------------------------------------------------
A|---------------------------------------------------------------------------------------------------------
E|---------------------------------------------------------------------------------------------------------
http://www.guitartabcreator.com
Guitar Tab Creator is intended to store guitar tab created through the tool. It currently does not support in-line text editing. Any text you place in here will be lost. If you need to comment on your tab, please use the "Tab Notes" section located below.