Down Tempo

(/) Slide Up  (\) Slide Down  (h) Hammer On  (p) Pull Off  (b) Bend (r) Release (v) Vibrato


E|--------------------------------------------------------------------------------
B|-----4--3----------------4--3----------------4--3----------------4--6-----------
G|-----------0-----0-------------0-----0-------------0-----0-------------0-----0--
D|-----0--------0----------0--------0----------0--------0----------0--------0-----
A|--3-----2-------------3-----2-------------3-----2-------------3-----5-----------
E|--------------------------------------------------------------------------------



E|-----------
B|-----3--4--
G|-----------
D|-----0-----
A|--2-----3--
E|-----------
http://www.guitartabcreator.com
Guitar Tab Creator is intended to store guitar tab created through the tool. It currently does not support in-line text editing. Any text you place in here will be lost. If you need to comment on your tab, please use the "Tab Notes" section located below.