Walk The Plank

(/) Slide Up  (\) Slide Down  (h) Hammer On  (p) Pull Off  (b) Bend (r) Release (v) Vibrato


E|-------------------------------------------------------------------------------------------
B|-------------------------------------------------------------------------------------------
G|-------------------------------------------------------------------------------------------
D|-------------------------------------------3-----------------------------------------------
A|-------3---3-3-5-6-5-3-1-------3---3-3-5-6---6-5-------3---3-5-6-5-3-1---------------------
E|-5-5-5---5---------------5-5-5---5---------------5-5-5---5-------------6-6-6-3-3-3-5-5-5-6-



E|-----------------------------------------------------------------------------------------------
B|-----------------------------------------------------------------------------------------------
G|-----------------------------------------------------------------------------------------------
D|-----------------------------------------------------------------------------------------------
A|--------7-------------------------7-------------------------7-------------------------7--------
E|-7-8-10---10-8-5-7-8-3-5-1-7-8-10---10-8-5-7-8-3-5-1-7-8-10---10-8-5-7-8-3-5-1-7-8-10---10-8---



E|---------------------------------------------------------------------------------------------------
B|---------------------------------------------------------------------------------------------------
G|---------------------------------------------------------------------------------------------------
D|---------------------------------------------------------------------------------------------------
A|-----------------6-5-----------------6-5-------------------6-5-------------------6-5-------------6-
E|-6-5-5-3-1-1---0-----0-7-8-0-0-3-0-1-----0-7-8-0-0-3-0-1-0-----0-7-8-0-0-3-0-1-0-----0-7-8-0-0-1---



E|-------------------------------------------------------------------------------------------------
B|-------------------------------------------------------------------------------------------------
G|-------------------------------------------------------------------------------------------------
D|-------------------------------------------------------------------------------------------------
A|-------------------------------------------------------------------------------------------------
E|-6-6-6-3-3-3-5-5-5-1-1-1-6-6-6-3-3-3-5-5-5-1-1-1-6-6-6-3-3-3-5-5-5-1-1-1-6-6-6-3-3-3-6-5-3-5-3-1-



E|----------------------------------------------------
B|----------------------------------------------------
G|----------------------------------------------------
D|----------------------------------------------------
A|----------------------------------------------------
E|-6-6-6-3-3-3-10-10-10-6-6-6-8-8-8-6-6-6-3-3-3-1-1-1-
http://www.guitartabcreator.com
Guitar Tab Creator is intended to store guitar tab created through the tool. It currently does not support in-line text editing. Any text you place in here will be lost. If you need to comment on your tab, please use the "Tab Notes" section located below.