Spider lick

(/) Slide Up  (\) Slide Down  (h) Hammer On  (p) Pull Off  (b) Bend (r) Release (v) Vibrato
E|-------------------------------------------------------------------------------------------------
B|-------------------------------------------------------------------------------------------------
G|-------------------------------------------------------------------------------------------------
D|-----------7-6---------------------7-6---------------------7-6-------------------7-6-------------
A|-------5-8-----8-8-7-5-4-------5-8-----8-7-5-4-5-------5-8-----7-5-4-5-------5-8-----8-7-5-4-5---
E|-0-0-0-------------------0-0-0-------------------0-0-0-----------------0-0-0---------------------



E|-------------------------------------------------------------------------------------------
B|-------------------------------------------------------------------------------------------
G|-------------------------------------------------------------------------------------------
D|-------7-8-7------------------7-8-7------------------5-6-5-------------------5-6-5---------
A|-------------8-7--------------------8-7--------------------6-5-3-------------------6-5-----
E|-8-8-8-----------10-8-7-8-8-8-----------10-8-7-5-5-5-------------6-5-3-5-5-5-----------0-3-



E|-----------------------------------------------------------------------------------
B|-----------------------------------------------------------------------------------
G|-----------------------------------------------------------------------------------
D|---------------------------------5-------------------------------------------------
A|-------5-----6-----3-------3-5-6---8-6-5-------5-----6-----3-----------------------
E|-0-0-0---0-0---0-0---3-5-6---------------0-0-0---0-0---0-0---8-8-8-8-8-8-12-10-8-7-



E|-----------------------------------------------------------------------------------
B|-----------------------------------------------------------------------------------
G|-----------------------------------------------------------------------------------
D|---------------------------------5-------------------------------------------------
A|-------5-----6-----3-------3-5-6---8-6-5-------5-----6-----3-----------------------
E|-0-0-0---0-0---0-0---3-5-6---------------0-0-0---0-0---0-0---8-8-8-8-8-8-12-10-8-7-



E|-----------------------------------------------------------------------------------
B|-----------------------------------------------------------------------------------
G|-----------------------------------------------------------------------------------
D|---------------------------------5-------------------------------------------------
A|-------5-----6-----2-------3-5-6---8-6-5-------5-----6-----3-----------------------
E|-0-0-0---0-0---0-0---3-5-6---------------0-0-0---0-0---0-0---8-8-8-8-8-8-12-10-8-7-



E|---------------------------------------------------------------------------------
B|---------------------------------------------------------------------------------
G|---------------------------------------------------------------------------------
D|---------------------------------5-----------------------------------------------
A|-------5-----6-----3-------3-5-6---6-5-------5-----6-----3-----------------------
E|-0-0-0---0-0---0-0---3-5-6-------------0-0-0---0-0---0-0---8-8-8-8-8-8-12-10-8-7-



E|-------------------------------------------------------------------------------------------------
B|-------------------------------------------------------------------------------------------------
G|-------------------------------------------------------------------------------------------------
D|-------------------------------------------------------------------------------------------------
A|-------------------------------------------------------------------------------------------------
E|-8-8-8-8-8-8-12-10-8-7-8-8-8-8-8-8-12-10-8-7-8-8-8-8-8-8-10-8-8-8-8-8-12-10-8-10-8-7-8-7-5-7-5-3-



E|-------------------------------------------------------------------------------------
B|-------------------------------------------------------------------------------------
G|-------------------------------------------------------------------------------------
D|-------------------------------------------------------------------------------------
A|-------------------------------------------------------------------5-----------3-----
E|-0-0-0-0--0-0-0-0--0-0-0-0-0-0-5-6-6-6-6-6--0-0-0-0--0-0-0-0-5-7-8---8-7-3-5-6---6-3-



E|-------------------------------------------------------------------------------------
B|-------------------------------------------------------------------------------------
G|-------------------------------------------------------------------------------------
D|-------------------------------------------------------------------------------------
A|-------------------------------------------------------------8-7-5-------------------
E|-0-0-0-0--0-0-0-0--0-0-0-0-0-0-5-6-6-6-6-6--0-0-0-0--0-0-0-0-------8-7-5-4-5-7-8-7-5-



E|-------------------------------------------------------------------------------------
B|-------------------------------------------------------------------------------------
G|-------------------------------------------------------------------------------------
D|-------------------------------------------------------------------------------------
A|-------------------------------------------------------------------5-----------3-----
E|-0-0-0-0--0-0-0-0--0-0-0-0-0-0-5-6-6-6-6-6--0-0-0-0--0-0-0-0-5-7-8---8-7-3-5-6---6-3-



E|-------------------------------------------------------------------------------------------------------------------------------------
B|-------------------------------------------------------------------------------------------------------------------------------------
G|-------------------------------------------------------------------------------------------------------------------------------------
D|----------------------------------------------------------------------------------------------5--6--5-----5-----------------3--------
A|-------------------------------------------------------------------------------------------------------8-----8--6--3--5--6-----6--3--
E|--0--0--0--0----0--0--0--0----0--0--0--0--0--0--5--6--6--6--6--6----0--0--0--0----0--0--0--0-----------------------------------------
http://www.guitartabcreator.com
Guitar Tab Creator is intended to store guitar tab created through the tool. It currently does not support in-line text editing. Any text you place in here will be lost. If you need to comment on your tab, please use the "Tab Notes" section located below.