Solo

(/) Slide Up  (\) Slide Down  (h) Hammer On  (p) Pull Off  (b) Bend (r) Release (v) Vibrato


E|-------------------------------------------------------------------------------------------
B|-------------------------------------------------------------------------15-17-18-17-18-20-
G|----------------------------------------------14-15-17-15-17-19-17-19-21-------------------
D|----------------------------12-13-15-14-15-17----------------------------------------------
A|----------10-12-13-12-13-15----------------------------------------------------------------
E|-10-12-13----------------------------------------------------------------------------------



E|------------------------------------------------------------------------------------------------
B|-20b21-20p17----17-20p17----17-20p17----17-20p17----17-20p17----17-20p17----17-20p17----17-20---
G|-------------19----------19----------19----------19----------19----------19----------19---------
D|------------------------------------------------------------------------------------------------
A|------------------------------------------------------------------------------------------------
E|------------------------------------------------------------------------------------------------



E|-20p17----17-20p17----17-20p17----17-20p17----17-20b21-20-18-17-18-17----17-------------------------
B|-------20----------20----------20----------20-------------------------20----20-18-20-18-17-18-17----
G|-------------------------------------------------------------------------------------------------19-
D|----------------------------------------------------------------------------------------------------
A|----------------------------------------------------------------------------------------------------
E|----------------------------------------------------------------------------------------------------



E|-------------------------------------------------------------------------------------------------
B|-17----------------------------------------------------------------------------------------------
G|----19-17-19-17-16-----------------------17-15-14----------15-14-------------14------------------
D|-------------------19-17-16-----------------------17-15-14-------17-15-14-------17-15-14---------
A|----------------------------19-17-16--------------------------------------17-------------17-15---
E|-------------------------------------19----------------------------------------------------------



E|-----------------------17p13----------13-17p13----------13-17p13----------13-17p13----------13-
B|-----------------------------15----15----------15----15----------15----15----------15----15----
G|--------------------------------14----------------14----------------14----------------14-------
D|-17-15-14--------------------------------------------------------------------------------------
A|----------17-15-14-----------------------------------------------------------------------------
E|-------------------17--------------------------------------------------------------------------



E|-15p12----------12-15p12-------12-15p12-------12-15p12----------12-13p10----------10---
B|-------13----13----------13----------------13----------13----13----------11----11------
G|----------12----------------12----------12----------------12----------------10---------
D|---------------------------------------------------------------------------------------
A|---------------------------------------------------------------------------------------
E|---------------------------------------------------------------------------------------



E|-13p10----------10-13p10----------10-13p10----------10-12p8---------8-12p8---------8-
B|-------11----11----------11----11----------11----11---------10---10--------10---10---
G|----------10----------------10----------------10---------------9--------------9------
D|-------------------------------------------------------------------------------------
A|-------------------------------------------------------------------------------------
E|-------------------------------------------------------------------------------------



E|-12p8---------8-12p8---------8-------------------
B|------10---10--------10---10---13-12-10---10-0---
G|---------9--------------9---------------9--------
D|-------------------------------------------------
A|-------------------------------------------------
E|-------------------------------------------------
http://www.guitartabcreator.com
Guitar Tab Creator is intended to store guitar tab created through the tool. It currently does not support in-line text editing. Any text you place in here will be lost. If you need to comment on your tab, please use the "Tab Notes" section located below.