ourto

(/) Slide Up  (\) Slide Down  (h) Hammer On  (p) Pull Off  (b) Bend (r) Release (v) Vibrato

E|--------------------------------------------------------------------------------------------------
B|--------------------------------------------------------------------------------------------------
G|--------------------------------------------------------------------------------------------------
D|--12-12-12-12-12-12-12-12-12-12-12-12-12-12-12-12-11-11-11-11-11-11-11-11-11-11-11-11-11-11-11-11-
A|--0--0--0--0--0--0--0--0--0--0--0--0--0--0--0--0--9--9--9--9--9--9--9--9--9--9--9--9--9--9--9--9--
E|--0--0--0--0--0--0--0--0--0--0--0--0--0--0--0--0--7--7--7--7--7--7--7--7--7--7--7--7--7--7--7--7--



E|---------------------------------------------------------------------------------
B|---------------------------------------------------------------------------------
G|---------------------------------------------------------------------------------
D|-5-5-5-5-5-5-5-5-5-5-5-5-5-5-5-5-7-7-7-7-5-5-5-5-0-0-0-0-0-0-0-0-0-0-0-0-0-0-0-0-
A|-5-5-5-5-5-5-5-5-5-5-5-5-5-5-5-5-7-7-7-7-5-5-5-5-0-0-0-0-0-0-0-0-0-0-0-0-0-0-0-0-
E|-5-5-5-5-5-5-5-5-5-5-5-5-5-5-5-5-7-7-7-7-5-5-5-5-0-0-0-0-0-0-0-0-0-0-0-0-0-0-0-0-



E|-------------------------------------------------------------------------------------------------
B|-15-15-15-15-15-15-15-15-15-15-17-17-17-15-15-15-------------------------------------------------
G|-x--x--x--x--x--x--x--x--x--x--x--x--x--x--x--x--------------------------------------------------
D|-12-12-12-12-12-12-12-12-12-12-14-14-14-12-12-12-11-11-11-11-11-11-11-11-11-11-12-12-12-11-11-11-
A|-------------------------------------------------9--9--9--9--9--9--9--9--9--9--9--9--9--9--9--9--
E|-------------------------------------------------7--7--7--7--7--7--7--7--7--7--7--7--7--7--7--7--



E|-----------------------------------------------------------------------------
B|-----------------------------------------------------------------------------
G|-----------------------------------------------------------------------------
D|--5--5--5--5--5--5--5--5--5--5--5--5--5--5--5--5--9--9--9--9--5--5--5--5-----
A|--5--5--5--5-----5--5--5--5--5--5--5--5--5--5--5--7--7--7--7--5--5--5--5-----
E|--5--5--5--5--5--5--5--5--5--5--5--5--5--5--5--5--7--7--7--7--5--5--5--5--0--
http://www.guitartabcreator.com
Guitar Tab Creator is intended to store guitar tab created through the tool. It currently does not support in-line text editing. Any text you place in here will be lost. If you need to comment on your tab, please use the "Tab Notes" section located below.