New Riff

(/) Slide Up  (\) Slide Down  (h) Hammer On  (p) Pull Off  (b) Bend (r) Release (v) Vibrato

E|-------------------------------------------------------------------------------------
B|-------------------------------------------------------------------------------------
G|-------------------------------------------------------------------------------------
D|-------------------------------------------------------------------------------------
A|---0-0-----------3---------0-0-----------3---------0-0-----------3-----------2-2-----
E|---0-0-0-0-0-3-6---6-5-3-2-0-0-0-0-0-3-6---6-5-3-2-0-0-0-0-0-3-6---6-5-3-2-0-2-2-2-2-



E|-------------------------------
B|-------------------------------
G|------------------------7h9h10\
D|---------5h7h8--7h8h10---------
A|--5h7h8------------------------
E|-------------------------------
http://www.guitartabcreator.com
Guitar Tab Creator is intended to store guitar tab created through the tool. It currently does not support in-line text editing. Any text you place in here will be lost. If you need to comment on your tab, please use the "Tab Notes" section located below.