Creepy Intro

(/) Slide Up  (\) Slide Down  (h) Hammer On  (p) Pull Off  (b) Bend (r) Release (v) Vibrato

E|--------------------------------------------------------------------------------------------
B|--------------------------------------------------------------------------------------------
G|--------------------------------------------------------------------------------------------
D|--7h8p7------------------7-----7h8p7------------------7-----7h8p7-------------7-------7-----
A|---------8--7\5-----7h8-----8---------8--7\5-----7h8-----8---------8--7\5--------7h8-----8--
E|--0--------------0-------------0--------------0-------------0--------------0----------------



E|-----------------------------------------------------------------------------------------
B|-----------------------------------------------------------------------------------------
G|-----------------------------------------------------------------------------------------
D|--7h8p7------------------7-----7h8p7------------------7-----7h8p7------------------7-----
A|---------8--7\5-----7h8-----8---------8--7\5-----7h8-----8---------8--7\5-----7h8-----8--
E|--0--------------0-------------7--------------7-------------7--------------7-------------



E|-----------------------------------------------------
B|-----------------------------------------------------
G|-----------7--------9--------10-----9----------------
D|-----7--------8--------8----------------------7--12--
A|--------8----------------------------------7-----12--
E|--8--------------8--------8------8-----11--------12--
http://www.guitartabcreator.com
Guitar Tab Creator is intended to store guitar tab created through the tool. It currently does not support in-line text editing. Any text you place in here will be lost. If you need to comment on your tab, please use the "Tab Notes" section located below.