Cody's riff

(/) Slide Up  (\) Slide Down  (h) Hammer On  (p) Pull Off  (b) Bend (r) Release (v) Vibrato


E|----------------------------------------------------------------------------
B|----------------------------------------------------------------------------
G|----------------------------------------------------------------------------
D|-7--------------------------------------------------------------------------
A|-5---------------------------5-5-5-5-5-5-5-5-5-5-5-5-5-5-5-5-5-5-5--5-5-5-5-
E|---0-0-0-0-0--0-0-0--0-5-7-8-7-7-7-6-6-6-6-6-6-5-5-5-5-5-5-5-5-5-5--5-5-5-5-



E|---------------------------
B|---------------------------
G|---------------------------
D|---------------------------
A|---------------------3-----
E|-7-6-5-6-5-0-3/4\3-0---4-5\
http://www.guitartabcreator.com
Guitar Tab Creator is intended to store guitar tab created through the tool. It currently does not support in-line text editing. Any text you place in here will be lost. If you need to comment on your tab, please use the "Tab Notes" section located below.