breakdown/bridge

(/) Slide Up  (\) Slide Down  (h) Hammer On  (p) Pull Off  (b) Bend (r) Release (v) Vibrato

E|----------------------------------------------------------------------
B|----------------------------------------------------------------------
G|----------------------------------------------------------------------
D|----------------------------------------------------------------------
A|------------------------------------------------------------1-0-------
E|-1-0-0-3-0-0-4-0-0-3-0-0-1-0-1-3-3--1-0-0-3-0-0-4-0-0-3-0-0-----4-2---



E|----------------------------------------------------------------------
B|----------------------------------------------------------------------
G|----------------------------------------------------------------------
D|-------------------------------------------------------------------10-
A|----------------------------------4-5-7-5-7-8-7-8-10-8-10-11-10-11----
E|-1-0-0-3-0-0-4-0-0-3-0-0-1-0-1-3--------------------------------------



E|---------------------------------------------------------------
B|---------------------------------------------------------------
G|---------------------------------------------------------------
D|--11p10------10------------------------------------------------
A|---------11------11p10--11p10\8--10p8------8-------------------
E|---------------------------------------11-----11--10--8--7--0--
http://www.guitartabcreator.com
Guitar Tab Creator is intended to store guitar tab created through the tool. It currently does not support in-line text editing. Any text you place in here will be lost. If you need to comment on your tab, please use the "Tab Notes" section located below.