The Dead In Your Eyes

(/) Slide Up  (\) Slide Down  (h) Hammer On  (p) Pull Off  (b) Bend (r) Release (v) Vibrato


E|-------------------------------------------------
B|-------------------------------------------------
G|-------------------------------------------------
D|--------3-----2----------------------------------
A|-----------------------3--------2-----2h3p2p0h2--
E|--0--0-----0-----0--0-----0--0-----0-------------



E|-----------------------------------------------
B|-----------------------------------------------
G|--------------------------------------------7--
D|--------3-----2--------------------------5-----
A|-----------------------3--------2-----3--------
E|--0--0-----0-----0--0-----0--0-----0-----------



E|-------------------------------------------------
B|-------------------------------------------------
G|-------------------------------------------------
D|--------3-----2----------------------------------
A|-----------------------3--------2-----2h3p2p0h2--
E|--0--0-----0-----0--0-----0--0-----0-------------



E|----------------------------------------------------
B|----------------------------------------------------
G|----------------------------------------------------
D|--------3-----2-----------------------3h5p3p2h3-----
A|-----------------------3--------2-------------------
E|--0--0-----0-----0--0-----0--0-----0----------------
http://www.guitartabcreator.com
Guitar Tab Creator is intended to store guitar tab created through the tool. It currently does not support in-line text editing. Any text you place in here will be lost. If you need to comment on your tab, please use the "Tab Notes" section located below.