Pumped Up Kicks - Foster the People

(/) Slide Up  (\) Slide Down  (h) Hammer On  (p) Pull Off  (b) Bend (r) Release (v) Vibrato


E|------------------------------------------------------------
B|------------------------------------------------------------
G|------------------------------------------------------------
D|--------------------------1--1--1---------------------------
A|--------------------1--3-----------3--1--1--1--1h3h1--------
E|--1--1--1--3--4--4------------------------------------4-----



E|--1--4--6--6--
B|--1--4--8--6--
G|--1--5--8--7--
D|--3--6--8--8--
A|--3--6--6--8--
E|--1--4--6--6--
http://www.guitartabcreator.com
Guitar Tab Creator is intended to store guitar tab created through the tool. It currently does not support in-line text editing. Any text you place in here will be lost. If you need to comment on your tab, please use the "Tab Notes" section located below.