Irish Jig

(/) Slide Up  (\) Slide Down  (h) Hammer On  (p) Pull Off  (b) Bend (r) Release (v) Vibrato

E|--3--0--0--7--0--0--3--0--0--7--5--3--
B|--------------------------------------
G|--------------------------------------
D|--------------------------------------
A|--------------------------------------
E|--------------------------------------



E|--2--------5--------2--------5--3--2--
B|-----3--3-----3--3-----3--3-----------
G|--------------------------------------
D|--------------------------------------
A|--------------------------------------
E|--------------------------------------



E|--10--9--10------------------------
B|-------------10--8--7--8--9--9--9--
G|-----------------------------------
D|-----------------------------------
A|-----------------------------------
E|-----------------------------------
http://www.guitartabcreator.com
Guitar Tab Creator is intended to store guitar tab created through the tool. It currently does not support in-line text editing. Any text you place in here will be lost. If you need to comment on your tab, please use the "Tab Notes" section located below.