Therapy

(/) Slide Up  (\) Slide Down  (h) Hammer On  (p) Pull Off  (b) Bend (r) Release (v) Vibrato
E|--------------------------------------------------------------------------------
B|-----2--3--2-----0--------2--3--2-----0--------2--------2--------2--3--2-----0--
G|--2-----------2-----2--2-----------2-----2--2-----2--2-----2--2-----------2-----
D|--------------------------------------------------------------------------------
A|--------------------------------------------------------------------------------
E|--------------------------------------------------------------------------------



E|--------------------------------------------------------------
B|-----0--2--2--0-----0--2--2--0-----0--2--3--2--0-----2--------
G|--2--------------2--------------2-----------------2--------2--
D|--------------------------------------------------------4-----
A|--------------------------------------------------------------
E|--------------------------------------------------------------



E|-----------------------------------------------------------------------
B|-----2--2--2--2--0-----2--3--2-----0-----2--2--2--2--0-----2--3--2-----
G|--2-----------------2-----------2-----2-----------------2-----------2--
D|-----------------------------------------------------------------------
A|-----------------------------------------------------------------------
E|-----------------------------------------------------------------------



E|--------0-----------------0--------------------------------------------
B|-----------2--2--2--0--------2--2--2--0-----2--2--2--2--0-----2--------
G|--2--2-----------------2-----------------2-----------------2--------2--
D|-----------------------------------------------------------------4-----
A|-----------------------------------------------------------------------
E|-----------------------------------------------------------------------



E|--------------------------------------------------------
B|-----2--2--2--2--0-----2--3--2--------0-----2--0--------
G|--2-----------------2-----------2--2-----2--------1--2--
D|--------------------------------------------------------
A|--------------------------------------------------------
E|--------------------------------------------------------



E|--------------------0--2--4--4--7--5--4--2-----0--2--0--------------
B|--0-----0--2--2--2--------------------------2-----------3--2--3--2--
G|-----2--------------------------------------------------------------
D|--------------------------------------------------------------------
A|--------------------------------------------------------------------
E|--------------------------------------------------------------------



E|--------------0--2--4--4--4--7--5--4--2--------0--2--0--------------
B|--0--2--2--2-----------------------------2--2-----------3--2--0-----
G|-----------------------------------------------------------------2--
D|--------------------------------------------------------------------
A|--------------------------------------------------------------------
E|--------------------------------------------------------------------



E|-----------------------------------------------------------------------------------
B|-----2--3--2-----0--------2--3--2-----0--------2--------2--------2--3--2-----0-----
G|--2-----------2-----2--2-----------2-----2--2-----2--2-----2--2-----------2--------
D|-----------------------------------------------------------------------------------
A|-----------------------------------------------------------------------------------
E|-----------------------------------------------------------------------------------



E|-----------------------------------------------------------------
B|-----0--2--2--0-----0--2--2--2--0-----0--2--3--2--0-----2--------
G|--2--------------2-----------------2-----------------2--------2--
D|-----------------------------------------------------------4-----
A|-----------------------------------------------------------------
E|-----------------------------------------------------------------



E|-----0--------------0--2-----------------------------0--------
B|--------2--2--0-----------2--0--0-----2--2--0--0--------2--2--
G|--2--------------2-----------------2--------------2-----------
D|--------------------------------------------------------------
A|--------------------------------------------------------------
E|--------------------------------------------------------------



E|--------------------0--2--4--4--7--5--4--2-----0--2--0--------------
B|--0-----0--2--2--2--------------------------2-----------3--2--3--2--
G|-----2--------------------------------------------------------------
D|--------------------------------------------------------------------
A|--------------------------------------------------------------------
E|--------------------------------------------------------------------



E|--5--4--5--5--5--4--4--4--4--7--5--4--2-----0--2--0--------------
B|-----------------------------------------2-----------3--2--3--2--
G|-----------------------------------------------------------------
D|-----------------------------------------------------------------
A|-----------------------------------------------------------------
E|-----------------------------------------------------------------



E|--------0-----------------------------------------------------------------------
B|--2--3-----3--0-----2-----3--2--0-----0--2-----3--2--0--------2-----3--2--0--0--
G|-----------------2-----2-----------2--------2-----------2--2-----2--------------
D|--------------------------------------------------------------------------------
A|--------------------------------------------------------------------------------
E|--------------------------------------------------------------------------------



E|--------0--------------------------------------------------------------------------------
B|--2--3-----3-----0--2--2--3--2--0-----0--2-----3--2--0--0-----2--3--2-----2--0--0--------
G|--------------2--------------------2--------2--------------2-----------2-----------1--2--
D|-----------------------------------------------------------------------------------------
A|-----------------------------------------------------------------------------------------
E|-----------------------------------------------------------------------------------------



E|--------------------0--2--4--4--2--5--4--2-----0--2--0-----------0--
B|--0-----0--2--2--2--------------------------2-----------3--2--3-----
G|-----2--------------------------------------------------------------
D|--------------------------------------------------------------------
A|--------------------------------------------------------------------
E|--------------------------------------------------------------------



E|--------------0--2--4--4--4--7--5--4--2-----0--2--0-----------0--
B|--0--2--2--2-----------------------------2-----------3--2--3-----
G|-----------------------------------------------------------------
D|-----------------------------------------------------------------
A|-----------------------------------------------------------------
E|-----------------------------------------------------------------



E|--5--4--5--5--5--4--4--7--4--5--4--2-----0--2--0-----------0--
B|--------------------------------------2-----------3--2--3-----
G|--------------------------------------------------------------
D|--------------------------------------------------------------
A|--------------------------------------------------------------
E|--------------------------------------------------------------



E|--5--4--5--5--5--4--2--0--0-----2--4--2-----------------------------
B|-----------------------------2-----------2--2--2--3--2--0-----0-----
G|-----------------------------------------------------------2-----2--
D|--------------------------------------------------------------------
A|--------------------------------------------------------------------
E|--------------------------------------------------------------------



E|--------------------------------------------------------------------------0--
B|-----2--3--2--0--------2--3--2--0--------2--------2--------2--3--2--0-----2--
G|--2--------------2--2--------------2--2-----2--2-----2--2--------------2--2--
D|-----------------------------------------------------------------------------
A|-----------------------------------------------------------------------------
E|-----------------------------------------------------------------------------
http://www.guitartabcreator.com
Guitar Tab Creator is intended to store guitar tab created through the tool. It currently does not support in-line text editing. Any text you place in here will be lost. If you need to comment on your tab, please use the "Tab Notes" section located below.