newriff1

(/) Slide Up  (\) Slide Down  (h) Hammer On  (p) Pull Off  (b) Bend (r) Release (v) Vibrato


E|-----------7--8-------------------------5--8--5--------------7--10--8--7------------
B|--------8--------10------------------6-----------6--7-----8---------------8---------
G|-----7---------------9------------5--------------------8---------------------9------
D|--9---------------------10-----7------------------------------------------------10--
A|----------------------------8-------------------------------------------------------
E|------------------------------------------------------------------------------------



E|------------------------------
B|--------7--8--10--7--8--------
G|-----7------------------7----r
D|--7---------------------------
A|------------------------------
E|------------------------------
http://www.guitartabcreator.com
Guitar Tab Creator is intended to store guitar tab created through the tool. It currently does not support in-line text editing. Any text you place in here will be lost. If you need to comment on your tab, please use the "Tab Notes" section located below.