indian riff

(/) Slide Up  (\) Slide Down  (h) Hammer On  (p) Pull Off  (b) Bend (r) Release (v) Vibrato

E|-----------------------------1-----------
B|-12\7--7h8p7\6-7-8-7-7h8\2-3---2---------
G|---------------------------------4-3-4-6-
D|-----------------------------------------
A|-----------------------------------------
E|-----------------------------------------



E|--9---4--5--9---4--7--
B|--10--5--7--10--5--9--
G|--11--6--7--11--6--9--
D|--11--6--7--11--6--9--
A|--9---4--5--9---4--7--
E|----------------------



E|----------------------------------------------
B|--------------------8p0-------------------3p0-
G|-----7h9p7--------0---------0-3-2-0-----------
D|---8-------8----9---------2---------4---4-----
A|-9-----------10---------4-------------5-------
E|----------------------------------------------



E|------------------------------------------
B|------------------------------------------
G|------------------------------------------
D|------------------------------------------
A|--9--8--7--6--5-----10--9--8--7--6--5/10--
E|-----------------3------------------------



E|--------------------
B|--------------------
G|--------------------
D|--------------------
A|--4--------5--4--5--
E|-----3--2-----------
http://www.guitartabcreator.com
Guitar Tab Creator is intended to store guitar tab created through the tool. It currently does not support in-line text editing. Any text you place in here will be lost. If you need to comment on your tab, please use the "Tab Notes" section located below.