Dreadful Images

(/) Slide Up  (\) Slide Down  (h) Hammer On  (p) Pull Off  (b) Bend (r) Release (v) Vibrato

E|---------------------------------------------------------------
B|---------------------------------------------------------------
G|--9--9-----------7--7-----------5--5-----------12--12----------
D|--9--9-----------7--7-----------5--5-----------12--12--12--12--
A|--7--7-----------5--5-----------3--3-----------10--10--12--12--
E|--------0--0--0--------0--0--0--------0--0--0----------10--10--



E|---------------------------------------------------------------
B|---------------------------------------------------------------
G|--9--9-----------7--7-----------5--5-----------12--12----------
D|--9--9-----------7--7-----------5--5-----------12--12--12--12--
A|--7--7-----------5--5-----------3--3-----------10--10--12--12--
E|--------0--0--0--------0--0--0--------0--0--0----------10--10--



E|-------------------------------------------------------------------
B|-------------------------------------------------------------------
G|--------------9--------------7--------------5--------------12------
D|--------------9--------------7--------------5--------------12--12--
A|--------------7--------------5--------------3--------------10--12--
E|--0--0--0--0-----0--0--0--0-----0--0--0--0-----0--0--0--0------10--



E|-------------------------------------------------------------------
B|-------------------------------------------------------------------
G|--------------9--------------7--------------5--------------12------
D|--------------9--------------7--------------5--------------12--12--
A|--------------7--------------5--------------3--------------10--12--
E|--0--0--0--0-----0--0--0--0-----0--0--0--0-----0--0--0--0------10--



E|----------------------------------------------------------------------
B|----------------------------------------------------------------------
G|--------------12--------------10--------------17--------------15--14--
D|--------------12--------------10--------------17--------------15--14--
A|--------------10--------------8---------------15--------------13--12--
E|--0--0--0--0------0--0--0--0------0--0--0--0------0--0--0--0----------



E|----------------------------------------------------------------------
B|----------------------------------------------------------------------
G|--------------12--------------10--------------17--------------15--14--
D|--------------12--------------10--------------17--------------15--14--
A|--------------10--------------8---------------15--------------13--12--
E|--0--0--0--0------0--0--0--0------0--0--0--0------0--0--0--0----------
http://www.guitartabcreator.com
Guitar Tab Creator is intended to store guitar tab created through the tool. It currently does not support in-line text editing. Any text you place in here will be lost. If you need to comment on your tab, please use the "Tab Notes" section located below.