golden eyes

(/) Slide Up  (\) Slide Down  (h) Hammer On  (p) Pull Off  (b) Bend (r) Release (v) Vibrato

E|-------------------------------------|------------------------------------------
B|----12-14----15-14-12----------------|----12-14----15/17--15-14-14-15-----------
G|-11-------11----------11--14--12--11-|-11-------11--------------------14--14\11-
D|-------------------------------------|------------------------------------------
A|-------------------------------------|------------------------------------------
E|-------------------------------------|------------------------------------------



E|-----------------------------------------
B|----12-14----15-14-12--------------------
G|-11-------11----------11-----------------
D|-------------------------12p11-12--14/16-
A|-----------------------------------------
E|-----------------------------------------



E|-
B|-
G|-
D|-
A|-
E|-
http://www.guitartabcreator.com
Guitar Tab Creator is intended to store guitar tab created through the tool. It currently does not support in-line text editing. Any text you place in here will be lost. If you need to comment on your tab, please use the "Tab Notes" section located below.