tuje Am

(/) Slide Up  (\) Slide Down  (h) Hammer On  (p) Pull Off  (b) Bend (r) Release (v) Vibrato
E|--------------------------|--------------------------|--
B|--------------------------|--------------------------|--
G|--------------------------|--------------------------|--
D|-----7--7--5-----------5--|-----7--7--5--------------|--
A|--7-----------8--7--5-----|--7-----------8--5--8--7--|--
E|--------------------------|--------------------------|--



E|--------|-----------------------------------|--------------------------------------|--
B|--------|-----5-----5--------6--5-----------|-----5-----5--------------------------|--
G|--------|--------7-----5--7-----------------|--------7-----5--7--5--4--------------|--
D|--7--7--|--7-----------------------------7--|--7-----------------------------7--7--|--
A|--------|-----------------------------------|--------------------------------------|--
E|--------|-----------------------------------|--------------------------------------|--



E|--
B|--
G|--
D|--
A|--
E|--



E|-----------------------------------|-------------------------------|--
B|-----------------------------------|-------------------------------|--
G|--------4--------5--4-----------4--|--------4-----5--4-------------|--
D|--5--7-----5--7--------------7-----|--5--7-----5--------7----------|--
A|-----------------------------------|-------------------------------|--
E|-----------------------------------|-------------------------------|--



E|--------5--5-----|--------5--5--------------|-----------------------|--
B|--5--6--------5--|--5--6--------5-----5--6--|-----5--6--------6--5--|--
G|-----------------|-----------------7--------|--7--------5--4--------|--
D|-----------------|--------------------------|-----------------------|--
A|-----------------|--------------------------|-----------------------|--
E|-----------------|--------------------------|-----------------------|--



E|--------------------|--------------------|--------------------------------------|--
B|--5-----5-----------|--5-----5-----------|-----------8--6--8--6--5--------------|--
G|-----7-----5--4-----|-----7-----4--5--7--|--4--5--7-----------------7--5--4-----|--
D|-----------------7--|--------------------|-----------------------------------7--|--
A|--------------------|--------------------|--------------------------------------|--
E|--------------------|--------------------|--------------------------------------|--
http://www.guitartabcreator.com
Guitar Tab Creator is intended to store guitar tab created through the tool. It currently does not support in-line text editing. Any text you place in here will be lost. If you need to comment on your tab, please use the "Tab Notes" section located below.