Arey re arey Kuch

(/) Slide Up  (\) Slide Down  (h) Hammer On  (p) Pull Off  (b) Bend (r) Release (v) Vibrato

E|--------------------------|--------------------|--------------------------|-----------------------|--
B|--------------5-----------|--------------6--5--|--------------5-----------|--------5--------------|--
G|-----4--5--------7--5--4--|-----4--5-----------|-----4--5--------7--5--4--|--5--7-----4--5--4-----|--
D|--7--------7--------------|--7--------7--------|--7--------7--------------|--------------------7--|--
A|--------------------------|--------------------|--------------------------|-----------------------|--
E|--------------------------|--------------------|--------------------------|-----------------------|--



E|-----------------------|-----------------|-----------------------|-----------------|--
B|--------5-----5--------|--------5--8-----|--------5-----5--------|--------5--8-----|--
G|-----5-----7-----7--5--|-----5--------7--|-----5-----------7--5--|-----5--------7--|--
D|--7--------------------|--7--------------|--7--------7-----------|--7--------------|--
A|-----------------------|-----------------|-----------------------|-----------------|--
E|-----------------------|-----------------|-----------------------|-----------------|--



E|-----------5--------------------------|-------------------------------|--
B|--5--5--5-----8--10---8----5----------|----5-----5--------------------|--
G|---------------------------------7--5-|-5-----5-----7--5--4--5--4-----|--
D|--------------------------------------|----------------------------7--|--
A|--------------------------------------|-------------------------------|--
E|--------------------------------------|-------------------------------|--
http://www.guitartabcreator.com
Guitar Tab Creator is intended to store guitar tab created through the tool. It currently does not support in-line text editing. Any text you place in here will be lost. If you need to comment on your tab, please use the "Tab Notes" section located below.