Am octave scale

(/) Slide Up  (\) Slide Down  (h) Hammer On  (p) Pull Off  (b) Bend (r) Release (v) Vibrato


E|--------------------------------------------5--7--8--10--12--10--8--7-----------------------------
B|-----------------------------------5--6--8-----------------------------10--8----------------------
G|--------------------------4--5--7---------------------------------------------10--9--7------------
D|--------------------5--7----------------------------------------------------------------10--9--7--
A|-----------5--7--8--------------------------------------------------------------------------------
E|--5--7--8-----------------------------------------------------------------------------------------



E|-------------------------
B|-------------------------
G|-------------------------
D|-------------------------
A|--10--8--7---------------
E|------------10--8--7--5--
http://www.guitartabcreator.com
Guitar Tab Creator is intended to store guitar tab created through the tool. It currently does not support in-line text editing. Any text you place in here will be lost. If you need to comment on your tab, please use the "Tab Notes" section located below.