G - MajorPent

(/) Slide Up  (\) Slide Down  (h) Hammer On  (p) Pull Off  (b) Bend (r) Release (v) Vibrato


E|-----------------------3--3--5-----------
B|--------------------3-----------3--5--8--
G|-----4--7--------4-----------------------
D|--5--------5--5--------------------------
A|-----------------------------------------
E|-----------------------------------------



E|---------------------------10--------------
B|------------8-----------8------8--------8--
G|------7--9-----7--7--9------------9--9-----
D|-------------------------------------------
A|--10---------------------------------------
E|-------------------------------------------



E|-------------------------------------10--12--10----------
B|----------------------------------8--------------10------
G|----------9--------------9--7--9---------------------12--
D|------12---------12--12----------------------------------
A|--10---------10------------------------------------------
E|---------------------------------------------------------



E|--------------------------------------------------------------
B|--------------------------------------------------------------
G|------------------12--14--------------------------------------
D|----------12--14----------12--14----------------------12--14--
A|--10--12--------------------------------------10--12----------
E|----------------------------------15--12--10------------------



E|--------------------------------------------------15--------------
B|------------------------------------------15--12------15----------
G|----------14--------------14--12--12--14------------------12--12--
D|--12--14------12--14--12------------------------------------------
A|------------------------------------------------------------------
E|------------------------------------------------------------------
http://www.guitartabcreator.com
Guitar Tab Creator is intended to store guitar tab created through the tool. It currently does not support in-line text editing. Any text you place in here will be lost. If you need to comment on your tab, please use the "Tab Notes" section located below.