E - Dorian

(/) Slide Up  (\) Slide Down  (h) Hammer On  (p) Pull Off  (b) Bend (r) Release (v) Vibrato


E|--------------------------0--------------------------
B|--------------------0--0--------0--------5--5--------
G|-----------------2-----------2-----2--4--------2--4--
D|--------------2--------------------------------------
A|-----0--2--2-----------------------------------------
E|--0--------------------------------------------------



E|--------------5--7--------5--7---------7---------7--
B|--------5--5--------5--5-----------10--------10-----
G|-----4--------------------------9---------9---------
D|--7-------------------------------------------------
A|----------------------------------------------------
E|----------------------------------------------------



E|-----------------------------7--5-----5--7--7--------------------------------12--
B|-----------------------------------5---------------------------------10--12------
G|--------------------9-----9-----------------------7---------------9--------------
D|-----7--9--------7-----9-----------------------9-----7--9--9--12-----------------
A|--7--------7--7------------------------------------------------------------------
E|---------------------------------------------------------------------------------



E|-------------------------15--14--12----------12--10--9---------------------------------12--
B|-------------10--12--12--------------12--10-------------10--8--10--12----------12--10------
G|--9--11--12----------------------------------------------------------------14--------------
D|-----------------------------------------------------------------------14------------------
A|-------------------------------------------------------------------------------------------
E|-------------------------------------------------------------------------------------------



E|---------7--5--5--7-----5-----5--------7---------7------------
B|-----10--------------5-----5-----7--8-----10--7-----8--10-----
G|--9--------------------------------------------------------9--
D|--------------------------------------------------------------
A|--------------------------------------------------------------
E|--------------------------------------------------------------
http://www.guitartabcreator.com
Guitar Tab Creator is intended to store guitar tab created through the tool. It currently does not support in-line text editing. Any text you place in here will be lost. If you need to comment on your tab, please use the "Tab Notes" section located below.