D Aeolian

(/) Slide Up  (\) Slide Down  (h) Hammer On  (p) Pull Off  (b) Bend (r) Release (v) Vibrato


E|-----------------3--5--5-----3/10---------12--10-------------------------
B|--------------3-----------3--------8--10----------8--10--------------15--
G|-----0--2--2---------------------------------------------12--14--14------
D|--0----------------------------------------------------------------------
A|-------------------------------------------------------------------------
E|-------------------------------------------------------------------------



E|------13--15--10--13--15------13----------10--
B|--15----------------------15----------10------
G|----------------------------------12----------
D|----------------------------------------------
A|----------------------------------------------
E|----------------------------------------------



E|-------------------------------------------------------13--10--
B|--------6--8-----------8--6--------------------10--------------
G|--7--9--------9--7--9--------7--9--10--12--12------12----------
D|---------------------------------------------------------------
A|---------------------------------------------------------------
E|---------------------------------------------------------------



E|--10---------------------------------------
B|---------8--10--10-------------15--15--15--
G|------7-------------7--12--14--------------
D|-------------------------------------------
A|-------------------------------------------
E|-------------------------------------------



E|----------------------------------10--10--
B|-----------------8--10-----10--8----------
G|--5-----------5---------9-----------------
D|-----5--7--7------------------------------
A|------------------------------------------
E|------------------------------------------
http://www.guitartabcreator.com
Guitar Tab Creator is intended to store guitar tab created through the tool. It currently does not support in-line text editing. Any text you place in here will be lost. If you need to comment on your tab, please use the "Tab Notes" section located below.