C Phrygian

(/) Slide Up  (\) Slide Down  (h) Hammer On  (p) Pull Off  (b) Bend (r) Release (v) Vibrato

(W|WW) Whole (H|HH) Half (Q|QQ) Quarter (E|EE) 8th (S|SS) 16th (T|TT) 32nd (X|XX) 64th

t: W W W W W W W
E|-----------------------
B|--1-----1--2--------1--
G|--------------3--------
D|-----3-----------3-----
A|-----------------------
E|-----------------------


t: W none none none none none none none
E|------------8-----9--8--
B|--1--1/6/8-----6--------
G|------------------------
D|------------------------
A|------------------------
E|------------------------


t: E E EE E EE EE EE EE EE E E E EE EE EE E EE EE E
E|--8--9--11------------------------------------------------------------
B|------------9--11--------------11--9-----8----------------------------
G|-------------------10--10--12---------8-----10------10----------------
D|------------------------------------------------10-------------10-----
A|--------------------------------------------------------8--10---------
E|-------------------------------------------------------------------8--


t: E E E EE EE EE EE EE EE EE
E|--------------13----------------------
B|-----6--8/13----------------------13--
G|--------------------------10--12------
D|------------------11--10--------------
A|--------------------------------------
E|--8-----------------------------------


t: EE EE EE EE EE EE EE EE EE EE EE EE EE
E|------13--15----------13--15--------------------------
B|--13----------13--14----------13------13--14------13--
G|----------------------------------15----------15------
D|------------------------------------------------------
A|------------------------------------------------------
E|------------------------------------------------------


t: EE EE EE EE EE EE EE EE EE EE EE EE EE EE E E E E E E E E E E E E E E E E E E E E
E|------13--15------------------------------------11-----------8--------------------------------------------3--1-----
B|--13----------13--14/18-----------------------------13\8--6-----8--6-----------------------------------2--------1--
G|-------------------------17--18------17\10--12------------------------5-----------5-----------5--6--5--------------
D|---------------------------------17--------------------------------------5--3--5--------5--3-----------------------
A|-------------------------------------------------------------------------------------3-----------------------------
E|-------------------------------------------------------------------------------------------------------------------
http://www.guitartabcreator.com
Guitar Tab Creator is intended to store guitar tab created through the tool. It currently does not support in-line text editing. Any text you place in here will be lost. If you need to comment on your tab, please use the "Tab Notes" section located below.