gsce song first solo

(/) Slide Up  (\) Slide Down  (h) Hammer On  (p) Pull Off  (b) Bend (r) Release (v) Vibrato

E|----------------------------------------------------------------------------------------------
B|-------7--------9--10------10--9----------------------------------12h14--12----12h14--12--10--
G|--7/9-----9/11--------------------9--9------9h11--11--13--14----------------------------------
D|----------------------------------------11--------------------14------------------------------
A|----------------------------------------------------------------------------------------------
E|----------------------------------------------------------------------------------------------



E|--12--------------------------------
B|------12b14b12--10--10------10------
G|------------------------11----------
D|------------------------------------
A|------------------------------------
E|------------------------------------
http://www.guitartabcreator.com
Guitar Tab Creator is intended to store guitar tab created through the tool. It currently does not support in-line text editing. Any text you place in here will be lost. If you need to comment on your tab, please use the "Tab Notes" section located below.