GCSE musicsong

(/) Slide Up  (\) Slide Down  (h) Hammer On  (p) Pull Off  (b) Bend (r) Release (v) Vibrato

E|--------------------------------------------------------------------------------------------------
B|--------------------------------------------------------------------------------------------------
G|-----0-----0-----0-----0-----0-----0-------0--------0------0------0-----0------0------0------0----
D|---0-----0-----0-----0-----0-----0-------0--------0------0------0-----0------0------0------0------
A|--------------------------------------------------------------------------------------------------
E|-0-----0-----5-----6-----6-----6-----6/8-----8/10-----10-----10-----8-----11-----11-----11--------



E|-------------------------------------------
B|-------------------------------------------
G|-----0------0------0------0-----0-----0v---
D|---0------0------0------0-----0-----0------
A|-------------------------------------------
E|-8-----10-----10-----10-----8-----6--------



E|-----------0-------0-----------0------0--10---------------------------
B|---0-0-------0-------0-----------0----------11------------------------
G|---0-0-----------------10-0--------10----------12/14-10---------------
D|----------------------------------------------------------------------
A|----------------------------------------------------------------------
E|-0-----5-6------13----------13-------------------------------6-5-0----



E|--0--------0--------2--3--0--
B|--1--------0--------3--3--2--
G|--0--------0--------2--2--2--
D|--2--------2--------0--0--2--
A|--3--------2--------------0--
E|-----------0--------------0--
http://www.guitartabcreator.com
Guitar Tab Creator is intended to store guitar tab created through the tool. It currently does not support in-line text editing. Any text you place in here will be lost. If you need to comment on your tab, please use the "Tab Notes" section located below.