summer

(/) Slide Up  (\) Slide Down  (h) Hammer On  (p) Pull Off  (b) Bend (r) Release (v) Vibrato


E|--------------------------------------------------------------------------------------------
B|-----7--------7--------5--------5--------1--------1--------0--------0--------0--------0-----
G|--------7--------7--------5--------5--------2--------2--------1--------1--------0--------0--
D|-----------0-----------------0-----------------2-----------------2-----------------0--------
A|--5-----------------3-----------------0-----------------------------------------------------
E|--------------------------------------------------------0-----------------3-----------------



E|-----------------------------------------------------------
B|-----0--------0--------0--------0--------0--------0--------
G|--------2--------2--------0--------0--------0--------0-----
D|-----------0-----------------2-----------------2-----------
A|-----------------------------------------------------------
E|--2-----------------0-----------------0--------------------
http://www.guitartabcreator.com
Guitar Tab Creator is intended to store guitar tab created through the tool. It currently does not support in-line text editing. Any text you place in here will be lost. If you need to comment on your tab, please use the "Tab Notes" section located below.