Angie

(/) Slide Up  (\) Slide Down  (h) Hammer On  (p) Pull Off  (b) Bend (r) Release (v) Vibrato

E|------0--0--0--3--0--|-----------0--------------0--|-----------3-----------1--1--1-----|-----
B|------1--1--1--1--1--|--------3-----3--------3-----|--------3-----3--------1--1-----1--|-----
G|------2--2--2--2--2--|-----4-----------4-----4-----|-----5-----------5-----3--2--------|-----
D|------2--2--2--2--2--|-----------------------------|--5-----------------5--3--3--------|-----
A|--12-----------------|-----------------------------|-----------------------------------|-----
E|---------------------|--0-----------------4--------|-----------------------------------|-----



E|-----------------------|--0-----------------------------0--------|--
B|-----------------------|--1--5--5--5--3--------------3-----3-----|--
G|-----2-----3--2--------|--2--5--5--5-----5--4-----4-----------4--|--
D|--3-----3--------3--2--|--2--------------------------------------|--
A|-----------------------|-----------------------------------------|--
E|-----------------------|-----------------------4-----------------|--
http://www.guitartabcreator.com
Guitar Tab Creator is intended to store guitar tab created through the tool. It currently does not support in-line text editing. Any text you place in here will be lost. If you need to comment on your tab, please use the "Tab Notes" section located below.