Scary montsers

(/) Slide Up  (\) Slide Down  (h) Hammer On  (p) Pull Off  (b) Bend (r) Release (v) Vibrato

E|-------------------------------------
B|---------------------15--------------
G|--------------15b17------17--15------
D|--17--15--17---------------------15--
A|-------------------------------------
E|-------------------------------------



E|------------------------------------------
B|------------------------------------------
G|------------------------------------------
D|--15--13--12----------15--------------12--
A|--------------15--13------13------13------
E|------------------------------15----------



E|-----------------------------------
B|--20--------------18---------------
G|------19--15----------15-----------
D|--------------17----------17--15v--
A|-----------------------------------
E|-----------------------------------
http://www.guitartabcreator.com
Guitar Tab Creator is intended to store guitar tab created through the tool. It currently does not support in-line text editing. Any text you place in here will be lost. If you need to comment on your tab, please use the "Tab Notes" section located below.