in your arms before solo

(/) Slide Up  (\) Slide Down  (h) Hammer On  (p) Pull Off  (b) Bend (r) Release (v) Vibrato


E|--------------|--------------|--3-----------|--------------|--
B|--------------|--------------|--3-----------|--------------|--
G|--4-----------|--2-----------|--0-----------|--2-----------|--
D|--4-----------|--2-----------|--0-----------|--2-----------|--
A|--2--4--5--4--|--0--4--5--4--|--2--4--5--4--|--0--4--5--4--|--
E|--------------|--------------|--3-----------|--3-----------|--



E|--------------|--------------|--3-----------|--------------|--
B|--------------|--------------|--3-----------|--------------|--
G|--4-----------|--2-----------|--0-----------|--2-----------|--
D|--4-----------|--2-----------|--0-----------|--2--2--4--2--|--
A|--2--4--5--4--|--0--4--5--4--|--2--4--5--4--|--0-----------|--
E|--------------|--------------|--3-----------|--------------|--
http://www.guitartabcreator.com
Guitar Tab Creator is intended to store guitar tab created through the tool. It currently does not support in-line text editing. Any text you place in here will be lost. If you need to comment on your tab, please use the "Tab Notes" section located below.