in your arms intro to chrous

(/) Slide Up  (\) Slide Down  (h) Hammer On  (p) Pull Off  (b) Bend (r) Release (v) Vibrato


E|---------------------------|--
B|-----10--------------------|--
G|---------9--7--6--7--9--7--|--
D|--7------------------------|--
A|---------------------------|--
E|---------------------------|--



E|-----|-----|-----|-----|--
B|--3--|-----|-----|-----|--
G|--2--|--4--|--2--|-----|--
D|--0--|--4--|--2--|--5--|--
A|-----|--2--|--0--|--5--|--
E|-----|-----|-----|--3--|--



E|-----|-----|-----|------|--
B|-----|-----|-----|------|--
G|-----|--7--|-----|------|--
D|--7--|-----|--7--|------|--
A|-----|-----|-----|--10--|--
E|-----|-----|-----|------|--



E|-----|-----|-----|-----------|--
B|--3--|-----|-----|-----------|--
G|--2--|--4--|--2--|-----------|--
D|--0--|--4--|--2--|--5--------|--
A|-----|--2--|--0--|--5--------|--
E|-----|-----|-----|--3--3--2--|--



E|-----|-----|-----|-------------|--
B|-----|-----|-----|-------------|--
G|-----|--7--|-----|-------------|--
D|--7--|-----|--7--|-------------|--
A|-----|-----|-----|--10--10--9--|--
E|-----|-----|-----|-------------|--



E|-----|--3--|-----|-----|-----|--3--|-----|-----|--
B|-----|--3--|--3--|--3--|-----|--3--|-----|-----|--
G|-----|--0--|--2--|--2--|-----|--0--|--2--|--2--|--
D|--2--|--0--|--0--|--0--|--2--|--0--|--2--|--2--|--
A|--2--|--2--|-----|-----|--2--|--2--|--0--|--0--|--
E|--0--|--3--|-----|-----|--0--|--3--|-----|-----|--



E|-----|--3--|-----|--5--3--2--|-----2--3--|-----2--3--|-----|-----|--
B|-----|--3--|--3--|-----------|--5--------|--3--------|--5--|--5--|--
G|-----|--0--|--2--|-----------|-----------|-----------|-----|-----|--
D|--2--|--0--|--0--|-----------|-----------|-----------|-----|-----|--
A|--2--|--2--|-----|-----------|-----------|-----------|-----|-----|--
E|--0--|--3--|-----|-----------|-----------|-----------|-----|-----|--
http://www.guitartabcreator.com
Guitar Tab Creator is intended to store guitar tab created through the tool. It currently does not support in-line text editing. Any text you place in here will be lost. If you need to comment on your tab, please use the "Tab Notes" section located below.