in your arms bits

(/) Slide Up  (\) Slide Down  (h) Hammer On  (p) Pull Off  (b) Bend (r) Release (v) Vibrato


E|-----|--3--------|-----------|--3--|-----|--
B|--3--|--3--------|-----------|--3--|-----|--
G|--2--|--0--------|-----------|--0--|--2--|--
D|--0--|--0--------|--2--------|--0--|--2--|--
A|-----|--2--------|--2--------|--2--|--0--|--
E|-----|--3--3--2--|--0--0--2--|--3--|-----|--



E|-----|--
B|--3--|--
G|--2--|--
D|--0--|--
A|-----|--
E|-----|--



E|---------------------|----------------|-----|--
B|-----10--------8--7--|----------------|-----|--
G|---------9--7--------|--9--9--11--12--|--7--|--
D|--7------------------|----------------|-----|--
A|---------------------|----------------|-----|--
E|---------------------|----------------|-----|--



E|--5--3--2--3--2-----|--5--3--2--3--2-----|-----2--3--|-----2--3-----|-----7-----5-----3-----2-----
B|-----------------3--|-----------------3--|--5--------|--3--------5--|--5-----5-----5-----5-----5--
G|--------------------|--------------------|-----------|--------------|-----------------------------
D|--------------------|--------------------|-----------|--------------|-----------------------------
A|--------------------|--------------------|-----------|--------------|-----------------------------
E|--------------------|--------------------|-----------|--------------|-----------------------------



E|--5--3--2--3--2-----|--5--3--2--3--2-----|-----2--3--|-----2--3-----|--
B|-----------------3--|-----------------3--|--5--------|--3--------5--|--
G|--------------------|--------------------|-----------|--------------|--
D|--------------------|--------------------|-----------|--------------|--
A|--------------------|--------------------|-----------|--------------|--
E|--------------------|--------------------|-----------|--------------|--
http://www.guitartabcreator.com
Guitar Tab Creator is intended to store guitar tab created through the tool. It currently does not support in-line text editing. Any text you place in here will be lost. If you need to comment on your tab, please use the "Tab Notes" section located below.