What Does It Take?

Intro
E|--------------------------------|
B|--------------------------------|
G|--7--7--7--2--2-------------2---|
D|--7--7--7--2--2-------------2---|
A|--5--5--4--0--0-------0--3--0---|
E|-----------------0--3-----------| X4

Intro lead (Played on last two times)
E|--------------------------------|
B|--------------------------------|
G|--7--7--6--2--2--------2--5--2--|
D|-----------------2--5-----------|
A|--------------------------------|
E|--------------------------------| X2

Break
E|----------------------------|-----------------------------|--------------------|
B|----------------------------|-----------------------------|--------------------|
G|--2--2----2--2--2--2--2--2--|--2--2--2--2--2--2--2--2--2--|--2p0---------------|
D|--2--2----2--2--2--2--2--2--|--2--2--2--2--2--2--2--2--2--|-------2p0----------|
A|--0--0----0--0--0--0--0--0--|--0--0--0--0--0--0--0--0--0--|------------3p0--3--|
E|----------------------------|-----------------------------|--------------------|

Verse


Guitar Tab Creator is intended to store guitar tab created through the tool. It currently does not support in-line text editing. Any text you place in here will be lost. If you need to comment on your tab, please use the "Tab Notes" section located below.