turn away solo backing

(/) Slide Up  (\) Slide Down  (h) Hammer On  (p) Pull Off  (b) Bend (r) Release (v) Vibrato


E|-----------|-----------|-------------------------------|--
B|-----------|-----------|-----8--8--7--8----8--7--------|--
G|--5--------|-----------|--7--7--7--7--7----7--7--------|--
D|--5--4--5--|--5--4--5--|--7----------------------4--5--|--
A|--3--------|--5--------|--5----------------------------|--
E|-----------|--3--------|-------------------------------|--



E|-----------|-----------|-----------|-----|--
B|-----------|-----------|-----------|-----|--
G|--5--------|-----------|--4--------|-----|--
D|--5--4--5--|--5--4--5--|--4--------|--2--|--
A|--3--------|--5--------|--2--------|--2--|--
E|-----------|--3--------|-----3--2--|--0--|--
http://www.guitartabcreator.com
Guitar Tab Creator is intended to store guitar tab created through the tool. It currently does not support in-line text editing. Any text you place in here will be lost. If you need to comment on your tab, please use the "Tab Notes" section located below.