turn away solo 1

(/) Slide Up  (\) Slide Down  (h) Hammer On  (p) Pull Off  (b) Bend (r) Release (v) Vibrato


E|--7p0--5p0--4p0--2p0----------------------------|--
B|----------------------5p0--7p0--9p0--9h10p9h10--|--
G|------------------------------------------------|--
D|------------------------------------------------|--
A|------------------------------------------------|--
E|------------------------------------------------|--



E|--7p0--5p0--4p0--2p0----------------------------------------------------|--
B|----------------------5p0--7p0--9p0--7p0--9p0--10p0--12p0--14p0--15b17--|--
G|------------------------------------------------------------------------|--
D|------------------------------------------------------------------------|--
A|------------------------------------------------------------------------|--
E|------------------------------------------------------------------------|--
http://www.guitartabcreator.com
Guitar Tab Creator is intended to store guitar tab created through the tool. It currently does not support in-line text editing. Any text you place in here will be lost. If you need to comment on your tab, please use the "Tab Notes" section located below.